ISO-10303-21;
HEADER;
/* Generated by software containing ST-Developer
 * from STEP Tools, Inc. (www.steptools.com) 
 */

FILE_DESCRIPTION(
/* description */ (''),
/* implementation_level */ '2;1');

FILE_NAME(
/* name */ 'C:\\Users\\ldfli\\OneDrive\\Documents\\Models\\S25-SD10-30
0.stp',
/* time_stamp */ '2019-07-09T10:40:19-05:00',
/* author */ ('ldfli'),
/* organization */ (''),
/* preprocessor_version */ 'ST-DEVELOPER v18',
/* originating_system */ 'Autodesk Inventor LT',
/* authorisation */ '');

FILE_SCHEMA (('AUTOMOTIVE_DESIGN { 1 0 10303 214 3 1 1 }'));
ENDSEC;

DATA;
#10=MECHANICAL_DESIGN_GEOMETRIC_PRESENTATION_REPRESENTATION('',(#13),#427);
#11=SHAPE_REPRESENTATION_RELATIONSHIP('SRR','None',#434,#12);
#12=ADVANCED_BREP_SHAPE_REPRESENTATION('',(#14),#426);
#13=STYLED_ITEM('',(#443),#14);
#14=MANIFOLD_SOLID_BREP('Solid1',#222);
#15=TOROIDAL_SURFACE('',#257,9.07560950834183,0.999999999999992);
#16=CYLINDRICAL_SURFACE('',#250,12.5);
#17=CYLINDRICAL_SURFACE('',#267,5.00000000000005);
#18=CYLINDRICAL_SURFACE('',#273,6.00000000000002);
#19=LINE('',#372,#27);
#20=LINE('',#378,#28);
#21=LINE('',#385,#29);
#22=LINE('',#400,#30);
#23=LINE('',#406,#31);
#24=LINE('',#412,#32);
#25=LINE('',#418,#33);
#26=LINE('',#423,#34);
#27=VECTOR('',#295,12.);
#28=VECTOR('',#302,12.5);
#29=VECTOR('',#309,11.2862634210375);
#30=VECTOR('',#328,5.28867513459488);
#31=VECTOR('',#335,5.00000000000005);
#32=VECTOR('',#342,5.50000000000004);
#33=VECTOR('',#349,6.00000000000002);
#34=VECTOR('',#356,6.14433756729741);
#35=CONICAL_SURFACE('',#247,12.,0.78539816339745);
#36=CONICAL_SURFACE('',#253,11.2862634210375,0.0785398163397446);
#37=CONICAL_SURFACE('',#264,5.28867513459488,0.523598775598283);
#38=CONICAL_SURFACE('',#270,5.50000000000004,1.04719755119646);
#39=CONICAL_SURFACE('',#276,6.14433756729741,0.523598775598299);
#40=FACE_BOUND('',#54,.T.);
#41=FACE_BOUND('',#60,.T.);
#42=FACE_OUTER_BOUND('',#53,.T.);
#43=FACE_OUTER_BOUND('',#55,.T.);
#44=FACE_OUTER_BOUND('',#56,.T.);
#45=FACE_OUTER_BOUND('',#57,.T.);
#46=FACE_OUTER_BOUND('',#58,.T.);
#47=FACE_OUTER_BOUND('',#59,.T.);
#48=FACE_OUTER_BOUND('',#61,.T.);
#49=FACE_OUTER_BOUND('',#62,.T.);
#50=FACE_OUTER_BOUND('',#63,.T.);
#51=FACE_OUTER_BOUND('',#64,.T.);
#52=FACE_OUTER_BOUND('',#65,.T.);
#53=EDGE_LOOP('',(#145,#146));
#54=EDGE_LOOP('',(#147,#148));
#55=EDGE_LOOP('',(#149,#150,#151,#152,#153,#154));
#56=EDGE_LOOP('',(#155,#156,#157,#158,#159,#160));
#57=EDGE_LOOP('',(#161,#162,#163,#164,#165,#166,#167));
#58=EDGE_LOOP('',(#168,#169,#170,#171,#172,#173,#174));
#59=EDGE_LOOP('',(#175,#176));
#60=EDGE_LOOP('',(#177,#178));
#61=EDGE_LOOP('',(#179,#180,#181,#182,#183,#184));
#62=EDGE_LOOP('',(#185,#186,#187,#188,#189,#190));
#63=EDGE_LOOP('',(#191,#192,#193,#194,#195,#196));
#64=EDGE_LOOP('',(#197,#198,#199,#200,#201,#202));
#65=EDGE_LOOP('',(#203,#204,#205,#206,#207,#208));
#66=CIRCLE('',#243,11.5);
#67=CIRCLE('',#244,11.5);
#68=CIRCLE('',#245,6.28867513459481);
#69=CIRCLE('',#246,6.28867513459481);
#70=CIRCLE('',#248,12.5);
#71=CIRCLE('',#249,12.5);
#72=CIRCLE('',#251,12.5);
#73=CIRCLE('',#252,12.5);
#74=CIRCLE('',#254,10.072526842075);
#75=CIRCLE('',#255,10.072526842075);
#76=CIRCLE('',#256,10.072526842075);
#77=CIRCLE('',#258,9.07560950834183);
#78=CIRCLE('',#259,9.07560950834183);
#79=CIRCLE('',#260,0.999999999999992);
#80=CIRCLE('',#262,5.57735026918971);
#81=CIRCLE('',#263,5.57735026918971);
#82=CIRCLE('',#265,5.00000000000006);
#83=CIRCLE('',#266,5.00000000000006);
#84=CIRCLE('',#268,5.00000000000005);
#85=CIRCLE('',#269,5.00000000000005);
#86=CIRCLE('',#271,6.00000000000003);
#87=CIRCLE('',#272,6.00000000000003);
#88=CIRCLE('',#274,6.);
#89=CIRCLE('',#275,6.);
#90=VERTEX_POINT('',#359);
#91=VERTEX_POINT('',#360);
#92=VERTEX_POINT('',#363);
#93=VERTEX_POINT('',#364);
#94=VERTEX_POINT('',#368);
#95=VERTEX_POINT('',#369);
#96=VERTEX_POINT('',#374);
#97=VERTEX_POINT('',#375);
#98=VERTEX_POINT('',#380);
#99=VERTEX_POINT('',#381);
#100=VERTEX_POINT('',#383);
#101=VERTEX_POINT('',#388);
#102=VERTEX_POINT('',#389);
#103=VERTEX_POINT('',#394);
#104=VERTEX_POINT('',#395);
#105=VERTEX_POINT('',#399);
#106=VERTEX_POINT('',#401);
#107=VERTEX_POINT('',#405);
#108=VERTEX_POINT('',#407);
#109=VERTEX_POINT('',#411);
#110=VERTEX_POINT('',#413);
#111=VERTEX_POINT('',#417);
#112=VERTEX_POINT('',#419);
#113=EDGE_CURVE('',#90,#91,#66,.T.);
#114=EDGE_CURVE('',#91,#90,#67,.T.);
#115=EDGE_CURVE('',#92,#93,#68,.T.);
#116=EDGE_CURVE('',#93,#92,#69,.T.);
#117=EDGE_CURVE('',#94,#95,#70,.T.);
#118=EDGE_CURVE('',#95,#94,#71,.T.);
#119=EDGE_CURVE('',#95,#91,#19,.T.);
#120=EDGE_CURVE('',#96,#97,#72,.T.);
#121=EDGE_CURVE('',#97,#96,#73,.T.);
#122=EDGE_CURVE('',#97,#95,#20,.T.);
#123=EDGE_CURVE('',#98,#99,#74,.T.);
#124=EDGE_CURVE('',#100,#98,#75,.T.);
#125=EDGE_CURVE('',#100,#97,#21,.T.);
#126=EDGE_CURVE('',#99,#100,#76,.T.);
#127=EDGE_CURVE('',#101,#102,#77,.T.);
#128=EDGE_CURVE('',#102,#101,#78,.T.);
#129=EDGE_CURVE('',#102,#99,#79,.T.);
#130=EDGE_CURVE('',#103,#104,#80,.T.);
#131=EDGE_CURVE('',#104,#103,#81,.T.);
#132=EDGE_CURVE('',#104,#105,#22,.T.);
#133=EDGE_CURVE('',#106,#105,#82,.T.);
#134=EDGE_CURVE('',#105,#106,#83,.T.);
#135=EDGE_CURVE('',#105,#107,#23,.T.);
#136=EDGE_CURVE('',#108,#107,#84,.T.);
#137=EDGE_CURVE('',#107,#108,#85,.T.);
#138=EDGE_CURVE('',#107,#109,#24,.T.);
#139=EDGE_CURVE('',#110,#109,#86,.T.);
#140=EDGE_CURVE('',#109,#110,#87,.T.);
#141=EDGE_CURVE('',#109,#111,#25,.T.);
#142=EDGE_CURVE('',#112,#111,#88,.T.);
#143=EDGE_CURVE('',#111,#112,#89,.T.);
#144=EDGE_CURVE('',#111,#93,#26,.T.);
#145=ORIENTED_EDGE('',*,*,#113,.F.);
#146=ORIENTED_EDGE('',*,*,#114,.F.);
#147=ORIENTED_EDGE('',*,*,#115,.T.);
#148=ORIENTED_EDGE('',*,*,#116,.T.);
#149=ORIENTED_EDGE('',*,*,#117,.F.);
#150=ORIENTED_EDGE('',*,*,#118,.F.);
#151=ORIENTED_EDGE('',*,*,#119,.T.);
#152=ORIENTED_EDGE('',*,*,#114,.T.);
#153=ORIENTED_EDGE('',*,*,#113,.T.);
#154=ORIENTED_EDGE('',*,*,#119,.F.);
#155=ORIENTED_EDGE('',*,*,#120,.F.);
#156=ORIENTED_EDGE('',*,*,#121,.F.);
#157=ORIENTED_EDGE('',*,*,#122,.T.);
#158=ORIENTED_EDGE('',*,*,#118,.T.);
#159=ORIENTED_EDGE('',*,*,#117,.T.);
#160=ORIENTED_EDGE('',*,*,#122,.F.);
#161=ORIENTED_EDGE('',*,*,#123,.F.);
#162=ORIENTED_EDGE('',*,*,#124,.F.);
#163=ORIENTED_EDGE('',*,*,#125,.T.);
#164=ORIENTED_EDGE('',*,*,#121,.T.);
#165=ORIENTED_EDGE('',*,*,#120,.T.);
#166=ORIENTED_EDGE('',*,*,#125,.F.);
#167=ORIENTED_EDGE('',*,*,#126,.F.);
#168=ORIENTED_EDGE('',*,*,#127,.F.);
#169=ORIENTED_EDGE('',*,*,#128,.F.);
#170=ORIENTED_EDGE('',*,*,#129,.T.);
#171=ORIENTED_EDGE('',*,*,#126,.T.);
#172=ORIENTED_EDGE('',*,*,#124,.T.);
#173=ORIENTED_EDGE('',*,*,#123,.T.);
#174=ORIENTED_EDGE('',*,*,#129,.F.);
#175=ORIENTED_EDGE('',*,*,#127,.T.);
#176=ORIENTED_EDGE('',*,*,#128,.T.);
#177=ORIENTED_EDGE('',*,*,#130,.F.);
#178=ORIENTED_EDGE('',*,*,#131,.F.);
#179=ORIENTED_EDGE('',*,*,#130,.T.);
#180=ORIENTED_EDGE('',*,*,#132,.T.);
#181=ORIENTED_EDGE('',*,*,#133,.F.);
#182=ORIENTED_EDGE('',*,*,#134,.F.);
#183=ORIENTED_EDGE('',*,*,#132,.F.);
#184=ORIENTED_EDGE('',*,*,#131,.T.);
#185=ORIENTED_EDGE('',*,*,#133,.T.);
#186=ORIENTED_EDGE('',*,*,#135,.T.);
#187=ORIENTED_EDGE('',*,*,#136,.F.);
#188=ORIENTED_EDGE('',*,*,#137,.F.);
#189=ORIENTED_EDGE('',*,*,#135,.F.);
#190=ORIENTED_EDGE('',*,*,#134,.T.);
#191=ORIENTED_EDGE('',*,*,#136,.T.);
#192=ORIENTED_EDGE('',*,*,#138,.T.);
#193=ORIENTED_EDGE('',*,*,#139,.F.);
#194=ORIENTED_EDGE('',*,*,#140,.F.);
#195=ORIENTED_EDGE('',*,*,#138,.F.);
#196=ORIENTED_EDGE('',*,*,#137,.T.);
#197=ORIENTED_EDGE('',*,*,#139,.T.);
#198=ORIENTED_EDGE('',*,*,#141,.T.);
#199=ORIENTED_EDGE('',*,*,#142,.F.);
#200=ORIENTED_EDGE('',*,*,#143,.F.);
#201=ORIENTED_EDGE('',*,*,#141,.F.);
#202=ORIENTED_EDGE('',*,*,#140,.T.);
#203=ORIENTED_EDGE('',*,*,#142,.T.);
#204=ORIENTED_EDGE('',*,*,#144,.T.);
#205=ORIENTED_EDGE('',*,*,#115,.F.);
#206=ORIENTED_EDGE('',*,*,#116,.F.);
#207=ORIENTED_EDGE('',*,*,#144,.F.);
#208=ORIENTED_EDGE('',*,*,#143,.T.);
#209=PLANE('',#242);
#210=PLANE('',#261);
#211=ADVANCED_FACE('',(#42,#40),#209,.T.);
#212=ADVANCED_FACE('',(#43),#35,.T.);
#213=ADVANCED_FACE('',(#44),#16,.T.);
#214=ADVANCED_FACE('',(#45),#36,.T.);
#215=ADVANCED_FACE('',(#46),#15,.T.);
#216=ADVANCED_FACE('',(#47,#41),#210,.T.);
#217=ADVANCED_FACE('',(#48),#37,.F.);
#218=ADVANCED_FACE('',(#49),#17,.F.);
#219=ADVANCED_FACE('',(#50),#38,.F.);
#220=ADVANCED_FACE('',(#51),#18,.F.);
#221=ADVANCED_FACE('',(#52),#39,.F.);
#222=CLOSED_SHELL('',(#211,#212,#213,#214,#215,#216,#217,#218,#219,#220,
#221));
#223=DERIVED_UNIT_ELEMENT(#225,1.);
#224=DERIVED_UNIT_ELEMENT(#429,3.);
#225=(
MASS_UNIT()
NAMED_UNIT(*)
SI_UNIT($,.GRAM.)
);
#226=DERIVED_UNIT((#223,#224));
#227=MEASURE_REPRESENTATION_ITEM('density measure',
POSITIVE_RATIO_MEASURE(1.),#226);
#228=PROPERTY_DEFINITION_REPRESENTATION(#233,#230);
#229=PROPERTY_DEFINITION_REPRESENTATION(#234,#231);
#230=REPRESENTATION('material name',(#232),#426);
#231=REPRESENTATION('density',(#227),#426);
#232=DESCRIPTIVE_REPRESENTATION_ITEM('Generic','Generic');
#233=PROPERTY_DEFINITION('material property','material name',#436);
#234=PROPERTY_DEFINITION('material property','density of part',#436);
#235=DATE_TIME_ROLE('creation_date');
#236=APPLIED_DATE_AND_TIME_ASSIGNMENT(#237,#235,(#436));
#237=DATE_AND_TIME(#238,#239);
#238=CALENDAR_DATE(2019,9,7);
#239=LOCAL_TIME(15,18,1.,#240);
#240=COORDINATED_UNIVERSAL_TIME_OFFSET(0,0,.BEHIND.);
#241=AXIS2_PLACEMENT_3D('placement',#357,#277,#278);
#242=AXIS2_PLACEMENT_3D('',#358,#279,#280);
#243=AXIS2_PLACEMENT_3D('',#361,#281,#282);
#244=AXIS2_PLACEMENT_3D('',#362,#283,#284);
#245=AXIS2_PLACEMENT_3D('',#365,#285,#286);
#246=AXIS2_PLACEMENT_3D('',#366,#287,#288);
#247=AXIS2_PLACEMENT_3D('',#367,#289,#290);
#248=AXIS2_PLACEMENT_3D('',#370,#291,#292);
#249=AXIS2_PLACEMENT_3D('',#371,#293,#294);
#250=AXIS2_PLACEMENT_3D('',#373,#296,#297);
#251=AXIS2_PLACEMENT_3D('',#376,#298,#299);
#252=AXIS2_PLACEMENT_3D('',#377,#300,#301);
#253=AXIS2_PLACEMENT_3D('',#379,#303,#304);
#254=AXIS2_PLACEMENT_3D('',#382,#305,#306);
#255=AXIS2_PLACEMENT_3D('',#384,#307,#308);
#256=AXIS2_PLACEMENT_3D('',#386,#310,#311);
#257=AXIS2_PLACEMENT_3D('',#387,#312,#313);
#258=AXIS2_PLACEMENT_3D('',#390,#314,#315);
#259=AXIS2_PLACEMENT_3D('',#391,#316,#317);
#260=AXIS2_PLACEMENT_3D('',#392,#318,#319);
#261=AXIS2_PLACEMENT_3D('',#393,#320,#321);
#262=AXIS2_PLACEMENT_3D('',#396,#322,#323);
#263=AXIS2_PLACEMENT_3D('',#397,#324,#325);
#264=AXIS2_PLACEMENT_3D('',#398,#326,#327);
#265=AXIS2_PLACEMENT_3D('',#402,#329,#330);
#266=AXIS2_PLACEMENT_3D('',#403,#331,#332);
#267=AXIS2_PLACEMENT_3D('',#404,#333,#334);
#268=AXIS2_PLACEMENT_3D('',#408,#336,#337);
#269=AXIS2_PLACEMENT_3D('',#409,#338,#339);
#270=AXIS2_PLACEMENT_3D('',#410,#340,#341);
#271=AXIS2_PLACEMENT_3D('',#414,#343,#344);
#272=AXIS2_PLACEMENT_3D('',#415,#345,#346);
#273=AXIS2_PLACEMENT_3D('',#416,#347,#348);
#274=AXIS2_PLACEMENT_3D('',#420,#350,#351);
#275=AXIS2_PLACEMENT_3D('',#421,#352,#353);
#276=AXIS2_PLACEMENT_3D('',#422,#354,#355);
#277=DIRECTION('axis',(0.,0.,1.));
#278=DIRECTION('refdir',(1.,0.,0.));
#279=DIRECTION('center_axis',(-1.,1.24368306713148E-16,0.));
#280=DIRECTION('ref_axis',(0.,0.,1.));
#281=DIRECTION('center_axis',(1.,-1.24368306713148E-16,0.));
#282=DIRECTION('ref_axis',(0.,0.,-1.));
#283=DIRECTION('center_axis',(1.,-1.24368306713148E-16,0.));
#284=DIRECTION('ref_axis',(0.,0.,-1.));
#285=DIRECTION('center_axis',(1.,-1.24368306713148E-16,0.));
#286=DIRECTION('ref_axis',(0.,0.,-1.));
#287=DIRECTION('center_axis',(1.,-1.24368306713148E-16,0.));
#288=DIRECTION('ref_axis',(0.,0.,-1.));
#289=DIRECTION('center_axis',(1.,-1.24368306713148E-16,0.));
#290=DIRECTION('ref_axis',(0.,1.,0.));
#291=DIRECTION('center_axis',(1.,-1.24368306713148E-16,0.));
#292=DIRECTION('ref_axis',(0.,0.,-1.));
#293=DIRECTION('center_axis',(1.,-1.24368306713148E-16,0.));
#294=DIRECTION('ref_axis',(0.,0.,-1.));
#295=DIRECTION('',(-0.707106781186546,0.707106781186549,8.65956056235495E-17));
#296=DIRECTION('center_axis',(1.,-1.24368306713148E-16,0.));
#297=DIRECTION('ref_axis',(0.,1.,0.));
#298=DIRECTION('center_axis',(1.,-1.24368306713148E-16,0.));
#299=DIRECTION('ref_axis',(0.,0.,-1.));
#300=DIRECTION('center_axis',(1.,-1.24368306713148E-16,0.));
#301=DIRECTION('ref_axis',(0.,0.,-1.));
#302=DIRECTION('',(-1.,1.24368306713148E-16,0.));
#303=DIRECTION('center_axis',(-1.,1.24368306713148E-16,0.));
#304=DIRECTION('ref_axis',(0.,1.,0.));
#305=DIRECTION('center_axis',(1.,-1.24368306713148E-16,0.));
#306=DIRECTION('ref_axis',(0.,0.,-1.));
#307=DIRECTION('center_axis',(1.,-1.24368306713148E-16,0.));
#308=DIRECTION('ref_axis',(0.,0.,-1.));
#309=DIRECTION('',(-0.996917333733128,-0.0784590957278446,-9.60846804471009E-18));
#310=DIRECTION('center_axis',(1.,-1.24368306713148E-16,0.));
#311=DIRECTION('ref_axis',(0.,0.,-1.));
#312=DIRECTION('center_axis',(1.,-1.24368306713148E-16,0.));
#313=DIRECTION('ref_axis',(0.,0.,-1.));
#314=DIRECTION('center_axis',(1.,-1.24368306713148E-16,0.));
#315=DIRECTION('ref_axis',(0.,0.,-1.));
#316=DIRECTION('center_axis',(1.,-1.24368306713148E-16,0.));
#317=DIRECTION('ref_axis',(0.,0.,-1.));
#318=DIRECTION('center_axis',(-1.24368306713148E-16,-1.,-1.22464679914736E-16));
#319=DIRECTION('ref_axis',(0.,-1.22464679914736E-16,1.));
#320=DIRECTION('center_axis',(1.,-1.24368306713148E-16,0.));
#321=DIRECTION('ref_axis',(0.,0.,-1.));
#322=DIRECTION('center_axis',(1.,-1.24368306713148E-16,0.));
#323=DIRECTION('ref_axis',(0.,0.,-1.));
#324=DIRECTION('center_axis',(1.,-1.24368306713148E-16,0.));
#325=DIRECTION('ref_axis',(0.,0.,-1.));
#326=DIRECTION('center_axis',(1.,-1.24368306713148E-16,0.));
#327=DIRECTION('ref_axis',(0.,1.,0.));
#328=DIRECTION('',(-0.866025403784447,0.499999999999986,6.1232339957366E-17));
#329=DIRECTION('center_axis',(1.,-1.24368306713148E-16,0.));
#330=DIRECTION('ref_axis',(0.,0.,-1.));
#331=DIRECTION('center_axis',(1.,-1.24368306713148E-16,0.));
#332=DIRECTION('ref_axis',(0.,0.,-1.));
#333=DIRECTION('center_axis',(1.,-1.24368306713148E-16,0.));
#334=DIRECTION('ref_axis',(0.,1.,0.));
#335=DIRECTION('',(-1.,1.24368306713148E-16,0.));
#336=DIRECTION('center_axis',(1.,-1.24368306713148E-16,0.));
#337=DIRECTION('ref_axis',(0.,0.,-1.));
#338=DIRECTION('center_axis',(1.,-1.24368306713148E-16,0.));
#339=DIRECTION('ref_axis',(0.,0.,-1.));
#340=DIRECTION('center_axis',(-1.,1.24368306713148E-16,0.));
#341=DIRECTION('ref_axis',(0.,1.,0.));
#342=DIRECTION('',(-0.500000000000119,-0.86602540378437,-1.06057523872482E-16));
#343=DIRECTION('center_axis',(1.,-1.24368306713148E-16,0.));
#344=DIRECTION('ref_axis',(0.,0.,-1.));
#345=DIRECTION('center_axis',(1.,-1.24368306713148E-16,0.));
#346=DIRECTION('ref_axis',(0.,0.,-1.));
#347=DIRECTION('center_axis',(1.,-1.24368306713148E-16,0.));
#348=DIRECTION('ref_axis',(0.,1.,0.));
#349=DIRECTION('',(-1.,1.24368306713148E-16,0.));
#350=DIRECTION('center_axis',(1.,-1.24368306713148E-16,0.));
#351=DIRECTION('ref_axis',(0.,0.,-1.));
#352=DIRECTION('center_axis',(1.,-1.24368306713148E-16,0.));
#353=DIRECTION('ref_axis',(0.,0.,-1.));
#354=DIRECTION('center_axis',(-1.,1.24368306713148E-16,0.));
#355=DIRECTION('ref_axis',(0.,1.,0.));
#356=DIRECTION('',(-0.866025403784438,-0.5,-6.12323399573677E-17));
#357=CARTESIAN_POINT('',(0.,0.,0.));
#358=CARTESIAN_POINT('Origin',(3.5527136788005E-14,11.5,0.));
#359=CARTESIAN_POINT('',(3.5527136788005E-14,11.5,0.));
#360=CARTESIAN_POINT('',(3.27515792264421E-14,-11.5,-1.40834381901946E-15));
#361=CARTESIAN_POINT('Origin',(3.4104663537704E-14,2.22044604925031E-15,
0.));
#362=CARTESIAN_POINT('Origin',(3.4104663537704E-14,2.22044604925031E-15,
0.));
#363=CARTESIAN_POINT('',(3.5527136788005E-14,6.28867513459482,0.));
#364=CARTESIAN_POINT('',(3.4035274598665E-14,-6.28867513459481,-7.70140587445909E-16));
#365=CARTESIAN_POINT('Origin',(3.47291639890557E-14,2.22044604925031E-15,
0.));
#366=CARTESIAN_POINT('Origin',(3.47291639890557E-14,2.22044604925031E-15,
0.));
#367=CARTESIAN_POINT('Origin',(0.500000000000034,2.15826189589374E-15,0.));
#368=CARTESIAN_POINT('',(1.00000000000004,12.5,0.));
#369=CARTESIAN_POINT('',(1.00000000000003,-12.5,-1.53080849893419E-15));
#370=CARTESIAN_POINT('Origin',(1.00000000000003,2.09607774253717E-15,0.));
#371=CARTESIAN_POINT('Origin',(1.00000000000003,2.09607774253717E-15,0.));
#372=CARTESIAN_POINT('',(0.500000000000034,-12.,-1.46957615897682E-15));
#373=CARTESIAN_POINT('Origin',(134.617244079782,-1.45216726513427E-14,0.));
#374=CARTESIAN_POINT('',(268.234488159563,12.5,0.));
#375=CARTESIAN_POINT('',(268.234488159563,-12.5000000000001,-1.53080849893419E-15));
#376=CARTESIAN_POINT('Origin',(268.234488159563,-3.11394230452226E-14,0.));
#377=CARTESIAN_POINT('Origin',(268.234488159563,-3.11394230452226E-14,0.));
#378=CARTESIAN_POINT('',(134.617244079782,-12.5,-1.53080849893419E-15));
#379=CARTESIAN_POINT('Origin',(283.656473627645,-3.30574292640428E-14,0.));
#380=CARTESIAN_POINT('',(299.078459095728,10.0725268420749,0.));
#381=CARTESIAN_POINT('',(299.078459095728,-3.62089642585103E-14,10.072526842075));
#382=CARTESIAN_POINT('Origin',(299.078459095728,-3.4975435482863E-14,0.));
#383=CARTESIAN_POINT('',(299.078459095728,-10.072526842075,-1.23352877564729E-15));
#384=CARTESIAN_POINT('Origin',(299.078459095728,-3.4975435482863E-14,0.));
#385=CARTESIAN_POINT('',(283.656473627645,-11.2862634210375,-1.38216863729074E-15));
#386=CARTESIAN_POINT('Origin',(299.078459095728,-3.4975435482863E-14,0.));
#387=CARTESIAN_POINT('Origin',(299.,-3.49656776579811E-14,0.));
#388=CARTESIAN_POINT('',(300.,9.0756095083418,0.));
#389=CARTESIAN_POINT('',(300.,-3.62014875781644E-14,9.07560950834183));
#390=CARTESIAN_POINT('Origin',(300.,-3.50900459646942E-14,0.));
#391=CARTESIAN_POINT('Origin',(300.,-3.50900459646942E-14,0.));
#392=CARTESIAN_POINT('Origin',(299.,-3.60771192714513E-14,9.07560950834183));
#393=CARTESIAN_POINT('Origin',(300.,5.57735026918968,0.));
#394=CARTESIAN_POINT('',(300.,5.57735026918968,0.));
#395=CARTESIAN_POINT('',(300.,-5.57735026918975,-6.83028415488681E-16));
#396=CARTESIAN_POINT('Origin',(300.,-3.50900459646942E-14,0.));
#397=CARTESIAN_POINT('Origin',(300.,-3.50900459646942E-14,0.));
#398=CARTESIAN_POINT('Origin',(299.5,-3.50278618113376E-14,0.));
#399=CARTESIAN_POINT('',(299.,-5.00000000000009,-6.12323399573684E-16));
#400=CARTESIAN_POINT('',(299.5,-5.28867513459492,-6.47675907531182E-16));
#401=CARTESIAN_POINT('',(299.,5.00000000000002,0.));
#402=CARTESIAN_POINT('Origin',(299.,-3.49656776579811E-14,0.));
#403=CARTESIAN_POINT('Origin',(299.,-3.49656776579811E-14,0.));
#404=CARTESIAN_POINT('Origin',(283.788675134595,-3.3073870941607E-14,0.));
#405=CARTESIAN_POINT('',(268.57735026919,-5.00000000000008,-6.12323399573683E-16));
#406=CARTESIAN_POINT('',(283.788675134595,-5.00000000000009,-6.12323399573683E-16));
#407=CARTESIAN_POINT('',(268.57735026919,5.00000000000002,0.));
#408=CARTESIAN_POINT('Origin',(268.57735026919,-3.1182064225233E-14,0.));
#409=CARTESIAN_POINT('Origin',(268.57735026919,-3.1182064225233E-14,0.));
#410=CARTESIAN_POINT('Origin',(268.288675134595,-3.11461621875532E-14,0.));
#411=CARTESIAN_POINT('',(268.,-6.00000000000006,-7.34788079488415E-16));
#412=CARTESIAN_POINT('',(268.288675134595,-5.50000000000007,-6.73555739531049E-16));
#413=CARTESIAN_POINT('',(268.,6.,0.));
#414=CARTESIAN_POINT('Origin',(268.,-3.11102601498735E-14,0.));
#415=CARTESIAN_POINT('Origin',(268.,-3.11102601498735E-14,0.));
#416=CARTESIAN_POINT('Origin',(134.25,-1.44759991269899E-14,0.));
#417=CARTESIAN_POINT('',(0.500000000000043,-6.00000000000002,-7.34788079488414E-16));
#418=CARTESIAN_POINT('',(134.25,-6.00000000000003,-7.34788079488414E-16));
#419=CARTESIAN_POINT('',(0.500000000000036,6.,0.));
#420=CARTESIAN_POINT('Origin',(0.500000000000035,2.15826189589374E-15,0.));
#421=CARTESIAN_POINT('Origin',(0.500000000000035,2.15826189589374E-15,0.));
#422=CARTESIAN_POINT('Origin',(0.250000000000035,2.18935397257203E-15,0.));
#423=CARTESIAN_POINT('',(0.250000000000035,-6.14433756729741,-7.52464333467161E-16));
#424=UNCERTAINTY_MEASURE_WITH_UNIT(LENGTH_MEASURE(0.01),#428,
'DISTANCE_ACCURACY_VALUE',
'Maximum model space distance between geometric entities at asserted c
onnectivities');
#425=UNCERTAINTY_MEASURE_WITH_UNIT(LENGTH_MEASURE(0.01),#428,
'DISTANCE_ACCURACY_VALUE',
'Maximum model space distance between geometric entities at asserted c
onnectivities');
#426=(
GEOMETRIC_REPRESENTATION_CONTEXT(3)
GLOBAL_UNCERTAINTY_ASSIGNED_CONTEXT((#424))
GLOBAL_UNIT_ASSIGNED_CONTEXT((#428,#430,#431))
REPRESENTATION_CONTEXT('','3D')
);
#427=(
GEOMETRIC_REPRESENTATION_CONTEXT(3)
GLOBAL_UNCERTAINTY_ASSIGNED_CONTEXT((#425))
GLOBAL_UNIT_ASSIGNED_CONTEXT((#428,#430,#431))
REPRESENTATION_CONTEXT('','3D')
);
#428=(
LENGTH_UNIT()
NAMED_UNIT(*)
SI_UNIT(.MILLI.,.METRE.)
);
#429=(
LENGTH_UNIT()
NAMED_UNIT(*)
SI_UNIT(.CENTI.,.METRE.)
);
#430=(
NAMED_UNIT(*)
PLANE_ANGLE_UNIT()
SI_UNIT($,.RADIAN.)
);
#431=(
NAMED_UNIT(*)
SI_UNIT($,.STERADIAN.)
SOLID_ANGLE_UNIT()
);
#432=SHAPE_DEFINITION_REPRESENTATION(#433,#434);
#433=PRODUCT_DEFINITION_SHAPE('',$,#436);
#434=SHAPE_REPRESENTATION('',(#241),#426);
#435=PRODUCT_DEFINITION_CONTEXT('part definition',#440,'design');
#436=PRODUCT_DEFINITION('S25-SD10-300','S25-SD10-300',#437,#435);
#437=PRODUCT_DEFINITION_FORMATION('',$,#442);
#438=PRODUCT_RELATED_PRODUCT_CATEGORY('S25-SD10-300','S25-SD10-300',(#442));
#439=APPLICATION_PROTOCOL_DEFINITION('international standard',
'automotive_design',2009,#440);
#440=APPLICATION_CONTEXT(
'Core Data for Automotive Mechanical Design Process');
#441=PRODUCT_CONTEXT('part definition',#440,'mechanical');
#442=PRODUCT('S25-SD10-300','S25-SD10-300',$,(#441));
#443=PRESENTATION_STYLE_ASSIGNMENT((#444));
#444=SURFACE_STYLE_USAGE(.BOTH.,#447);
#445=SURFACE_STYLE_RENDERING_WITH_PROPERTIES($,#451,(#446));
#446=SURFACE_STYLE_TRANSPARENT(0.);
#447=SURFACE_SIDE_STYLE('',(#448,#445));
#448=SURFACE_STYLE_FILL_AREA(#449);
#449=FILL_AREA_STYLE('',(#450));
#450=FILL_AREA_STYLE_COLOUR('',#451);
#451=COLOUR_RGB('',0.749019607843137,0.749019607843137,0.749019607843137);
ENDSEC;
END-ISO-10303-21;
