ISO-10303-21;
HEADER;
/* Generated by software containing ST-Developer
 * from STEP Tools, Inc. (www.steptools.com) 
 */

FILE_DESCRIPTION(
/* description */ (''),
/* implementation_level */ '2;1');

FILE_NAME(
/* name */ 'C:\\Users\\Lee\\OneDrive\\Documents\\Models\\S050-SN025-03
15.stp',
/* time_stamp */ '2018-12-20T15:47:22-06:00',
/* author */ ('Lee'),
/* organization */ ('Pioneer N.A.'),
/* preprocessor_version */ 'ST-DEVELOPER v17',
/* originating_system */ 'Autodesk Inventor LT',
/* authorisation */ '');

FILE_SCHEMA (('AUTOMOTIVE_DESIGN { 1 0 10303 214 3 1 1 }'));
ENDSEC;

DATA;
#10=MECHANICAL_DESIGN_GEOMETRIC_PRESENTATION_REPRESENTATION('',(#13),#530);
#11=SHAPE_REPRESENTATION_RELATIONSHIP('SRR','None',#537,#12);
#12=ADVANCED_BREP_SHAPE_REPRESENTATION('',(#14),#529);
#13=STYLED_ITEM('',(#546),#14);
#14=MANIFOLD_SOLID_BREP('Solid1',#272);
#15=CYLINDRICAL_SURFACE('',#310,6.34999996162941);
#16=CYLINDRICAL_SURFACE('',#332,3.17499991833456);
#17=CYLINDRICAL_SURFACE('',#338,3.50000006473847);
#18=FACE_BOUND('',#42,.T.);
#19=FACE_BOUND('',#48,.T.);
#20=PLANE('',#302);
#21=PLANE('',#321);
#22=TOROIDAL_SURFACE('',#298,3.90414518843262,0.199999999999991);
#23=TOROIDAL_SURFACE('',#305,5.8499999999999,0.5);
#24=TOROIDAL_SURFACE('',#317,4.22167580009828,0.500000000000011);
#25=TOROIDAL_SURFACE('',#324,3.57914516298312,0.200000000000011);
#26=FACE_OUTER_BOUND('',#39,.T.);
#27=FACE_OUTER_BOUND('',#40,.T.);
#28=FACE_OUTER_BOUND('',#41,.T.);
#29=FACE_OUTER_BOUND('',#43,.T.);
#30=FACE_OUTER_BOUND('',#44,.T.);
#31=FACE_OUTER_BOUND('',#45,.T.);
#32=FACE_OUTER_BOUND('',#46,.T.);
#33=FACE_OUTER_BOUND('',#47,.T.);
#34=FACE_OUTER_BOUND('',#49,.T.);
#35=FACE_OUTER_BOUND('',#50,.T.);
#36=FACE_OUTER_BOUND('',#51,.T.);
#37=FACE_OUTER_BOUND('',#52,.T.);
#38=FACE_OUTER_BOUND('',#53,.T.);
#39=EDGE_LOOP('',(#173,#174,#175,#176,#177,#178,#179));
#40=EDGE_LOOP('',(#180,#181,#182,#183,#184,#185,#186));
#41=EDGE_LOOP('',(#187,#188));
#42=EDGE_LOOP('',(#189,#190));
#43=EDGE_LOOP('',(#191,#192,#193,#194,#195,#196,#197));
#44=EDGE_LOOP('',(#198,#199,#200,#201,#202,#203,#204));
#45=EDGE_LOOP('',(#205,#206,#207,#208,#209,#210,#211));
#46=EDGE_LOOP('',(#212,#213,#214,#215,#216,#217,#218));
#47=EDGE_LOOP('',(#219,#220));
#48=EDGE_LOOP('',(#221,#222));
#49=EDGE_LOOP('',(#223,#224,#225,#226,#227,#228,#229));
#50=EDGE_LOOP('',(#230,#231,#232,#233,#234,#235,#236));
#51=EDGE_LOOP('',(#237,#238,#239,#240,#241,#242));
#52=EDGE_LOOP('',(#243,#244,#245,#246,#247,#248));
#53=EDGE_LOOP('',(#249,#250,#251,#252,#253,#254));
#54=LINE('',#448,#61);
#55=LINE('',#479,#62);
#56=LINE('',#486,#63);
#57=LINE('',#509,#64);
#58=LINE('',#515,#65);
#59=LINE('',#521,#66);
#60=LINE('',#526,#67);
#61=VECTOR('',#345,3.61547009415217);
#62=VECTOR('',#384,6.34999996162941);
#63=VECTOR('',#391,5.53556880913665);
#64=VECTOR('',#420,3.29046999135773);
#65=VECTOR('',#427,3.17499991833456);
#66=VECTOR('',#434,3.33749999153652);
#67=VECTOR('',#441,3.50000006473847);
#68=CIRCLE('',#293,3.50000006473847);
#69=CIRCLE('',#294,3.73094012356587);
#70=CIRCLE('',#295,3.73094012356587);
#71=CIRCLE('',#296,3.73094012356587);
#72=CIRCLE('',#297,3.50000006473847);
#73=CIRCLE('',#299,3.90414518843262);
#74=CIRCLE('',#300,3.90414518843262);
#75=CIRCLE('',#301,0.199999999999991);
#76=CIRCLE('',#303,5.8499999999999);
#77=CIRCLE('',#304,5.8499999999999);
#78=CIRCLE('',#306,6.3499999999999);
#79=CIRCLE('',#307,6.3499999999999);
#80=CIRCLE('',#308,6.3499999999999);
#81=CIRCLE('',#309,0.5);
#82=CIRCLE('',#311,6.34999992325892);
#83=CIRCLE('',#312,6.34999992325892);
#84=CIRCLE('',#314,4.72113769501437);
#85=CIRCLE('',#315,4.72113769501437);
#86=CIRCLE('',#316,4.72113769501437);
#87=CIRCLE('',#318,4.22167580009828);
#88=CIRCLE('',#319,4.22167580009828);
#89=CIRCLE('',#320,0.500000000000011);
#90=CIRCLE('',#322,3.57914531577405);
#91=CIRCLE('',#323,3.57914531577405);
#92=CIRCLE('',#325,3.40594006438091);
#93=CIRCLE('',#326,3.40594006438091);
#94=CIRCLE('',#327,3.40594006438091);
#95=CIRCLE('',#328,0.200000000000011);
#96=CIRCLE('',#330,3.17499991833456);
#97=CIRCLE('',#331,3.17499991833456);
#98=CIRCLE('',#333,3.17499991833456);
#99=CIRCLE('',#334,3.17499991833456);
#100=CIRCLE('',#336,3.50000006473847);
#101=CIRCLE('',#337,3.50000006473847);
#102=VERTEX_POINT('',#444);
#103=VERTEX_POINT('',#445);
#104=VERTEX_POINT('',#447);
#105=VERTEX_POINT('',#449);
#106=VERTEX_POINT('',#451);
#107=VERTEX_POINT('',#456);
#108=VERTEX_POINT('',#457);
#109=VERTEX_POINT('',#462);
#110=VERTEX_POINT('',#463);
#111=VERTEX_POINT('',#467);
#112=VERTEX_POINT('',#468);
#113=VERTEX_POINT('',#470);
#114=VERTEX_POINT('',#475);
#115=VERTEX_POINT('',#476);
#116=VERTEX_POINT('',#481);
#117=VERTEX_POINT('',#482);
#118=VERTEX_POINT('',#484);
#119=VERTEX_POINT('',#489);
#120=VERTEX_POINT('',#490);
#121=VERTEX_POINT('',#495);
#122=VERTEX_POINT('',#496);
#123=VERTEX_POINT('',#500);
#124=VERTEX_POINT('',#501);
#125=VERTEX_POINT('',#503);
#126=VERTEX_POINT('',#508);
#127=VERTEX_POINT('',#510);
#128=VERTEX_POINT('',#514);
#129=VERTEX_POINT('',#516);
#130=VERTEX_POINT('',#520);
#131=VERTEX_POINT('',#522);
#132=EDGE_CURVE('',#102,#103,#68,.T.);
#133=EDGE_CURVE('',#103,#104,#54,.T.);
#134=EDGE_CURVE('',#105,#104,#69,.T.);
#135=EDGE_CURVE('',#106,#105,#70,.T.);
#136=EDGE_CURVE('',#104,#106,#71,.T.);
#137=EDGE_CURVE('',#103,#102,#72,.T.);
#138=EDGE_CURVE('',#107,#108,#73,.T.);
#139=EDGE_CURVE('',#108,#107,#74,.T.);
#140=EDGE_CURVE('',#108,#105,#75,.T.);
#141=EDGE_CURVE('',#109,#110,#76,.T.);
#142=EDGE_CURVE('',#110,#109,#77,.T.);
#143=EDGE_CURVE('',#111,#112,#78,.T.);
#144=EDGE_CURVE('',#113,#111,#79,.T.);
#145=EDGE_CURVE('',#112,#113,#80,.T.);
#146=EDGE_CURVE('',#112,#110,#81,.T.);
#147=EDGE_CURVE('',#114,#115,#82,.T.);
#148=EDGE_CURVE('',#115,#114,#83,.T.);
#149=EDGE_CURVE('',#115,#113,#55,.T.);
#150=EDGE_CURVE('',#116,#117,#84,.T.);
#151=EDGE_CURVE('',#118,#116,#85,.T.);
#152=EDGE_CURVE('',#118,#115,#56,.T.);
#153=EDGE_CURVE('',#117,#118,#86,.T.);
#154=EDGE_CURVE('',#119,#120,#87,.T.);
#155=EDGE_CURVE('',#120,#119,#88,.T.);
#156=EDGE_CURVE('',#120,#117,#89,.T.);
#157=EDGE_CURVE('',#121,#122,#90,.T.);
#158=EDGE_CURVE('',#122,#121,#91,.T.);
#159=EDGE_CURVE('',#123,#124,#92,.T.);
#160=EDGE_CURVE('',#125,#123,#93,.T.);
#161=EDGE_CURVE('',#124,#125,#94,.T.);
#162=EDGE_CURVE('',#124,#122,#95,.T.);
#163=EDGE_CURVE('',#125,#126,#57,.T.);
#164=EDGE_CURVE('',#127,#126,#96,.T.);
#165=EDGE_CURVE('',#126,#127,#97,.T.);
#166=EDGE_CURVE('',#126,#128,#58,.T.);
#167=EDGE_CURVE('',#129,#128,#98,.T.);
#168=EDGE_CURVE('',#128,#129,#99,.T.);
#169=EDGE_CURVE('',#128,#130,#59,.T.);
#170=EDGE_CURVE('',#131,#130,#100,.T.);
#171=EDGE_CURVE('',#130,#131,#101,.T.);
#172=EDGE_CURVE('',#130,#103,#60,.T.);
#173=ORIENTED_EDGE('',*,*,#132,.T.);
#174=ORIENTED_EDGE('',*,*,#133,.T.);
#175=ORIENTED_EDGE('',*,*,#134,.F.);
#176=ORIENTED_EDGE('',*,*,#135,.F.);
#177=ORIENTED_EDGE('',*,*,#136,.F.);
#178=ORIENTED_EDGE('',*,*,#133,.F.);
#179=ORIENTED_EDGE('',*,*,#137,.T.);
#180=ORIENTED_EDGE('',*,*,#138,.F.);
#181=ORIENTED_EDGE('',*,*,#139,.F.);
#182=ORIENTED_EDGE('',*,*,#140,.T.);
#183=ORIENTED_EDGE('',*,*,#134,.T.);
#184=ORIENTED_EDGE('',*,*,#136,.T.);
#185=ORIENTED_EDGE('',*,*,#135,.T.);
#186=ORIENTED_EDGE('',*,*,#140,.F.);
#187=ORIENTED_EDGE('',*,*,#141,.F.);
#188=ORIENTED_EDGE('',*,*,#142,.F.);
#189=ORIENTED_EDGE('',*,*,#138,.T.);
#190=ORIENTED_EDGE('',*,*,#139,.T.);
#191=ORIENTED_EDGE('',*,*,#143,.F.);
#192=ORIENTED_EDGE('',*,*,#144,.F.);
#193=ORIENTED_EDGE('',*,*,#145,.F.);
#194=ORIENTED_EDGE('',*,*,#146,.T.);
#195=ORIENTED_EDGE('',*,*,#142,.T.);
#196=ORIENTED_EDGE('',*,*,#141,.T.);
#197=ORIENTED_EDGE('',*,*,#146,.F.);
#198=ORIENTED_EDGE('',*,*,#147,.F.);
#199=ORIENTED_EDGE('',*,*,#148,.F.);
#200=ORIENTED_EDGE('',*,*,#149,.T.);
#201=ORIENTED_EDGE('',*,*,#144,.T.);
#202=ORIENTED_EDGE('',*,*,#143,.T.);
#203=ORIENTED_EDGE('',*,*,#145,.T.);
#204=ORIENTED_EDGE('',*,*,#149,.F.);
#205=ORIENTED_EDGE('',*,*,#150,.F.);
#206=ORIENTED_EDGE('',*,*,#151,.F.);
#207=ORIENTED_EDGE('',*,*,#152,.T.);
#208=ORIENTED_EDGE('',*,*,#148,.T.);
#209=ORIENTED_EDGE('',*,*,#147,.T.);
#210=ORIENTED_EDGE('',*,*,#152,.F.);
#211=ORIENTED_EDGE('',*,*,#153,.F.);
#212=ORIENTED_EDGE('',*,*,#154,.F.);
#213=ORIENTED_EDGE('',*,*,#155,.F.);
#214=ORIENTED_EDGE('',*,*,#156,.T.);
#215=ORIENTED_EDGE('',*,*,#153,.T.);
#216=ORIENTED_EDGE('',*,*,#151,.T.);
#217=ORIENTED_EDGE('',*,*,#150,.T.);
#218=ORIENTED_EDGE('',*,*,#156,.F.);
#219=ORIENTED_EDGE('',*,*,#154,.T.);
#220=ORIENTED_EDGE('',*,*,#155,.T.);
#221=ORIENTED_EDGE('',*,*,#157,.F.);
#222=ORIENTED_EDGE('',*,*,#158,.F.);
#223=ORIENTED_EDGE('',*,*,#159,.F.);
#224=ORIENTED_EDGE('',*,*,#160,.F.);
#225=ORIENTED_EDGE('',*,*,#161,.F.);
#226=ORIENTED_EDGE('',*,*,#162,.T.);
#227=ORIENTED_EDGE('',*,*,#158,.T.);
#228=ORIENTED_EDGE('',*,*,#157,.T.);
#229=ORIENTED_EDGE('',*,*,#162,.F.);
#230=ORIENTED_EDGE('',*,*,#159,.T.);
#231=ORIENTED_EDGE('',*,*,#161,.T.);
#232=ORIENTED_EDGE('',*,*,#163,.T.);
#233=ORIENTED_EDGE('',*,*,#164,.F.);
#234=ORIENTED_EDGE('',*,*,#165,.F.);
#235=ORIENTED_EDGE('',*,*,#163,.F.);
#236=ORIENTED_EDGE('',*,*,#160,.T.);
#237=ORIENTED_EDGE('',*,*,#164,.T.);
#238=ORIENTED_EDGE('',*,*,#166,.T.);
#239=ORIENTED_EDGE('',*,*,#167,.F.);
#240=ORIENTED_EDGE('',*,*,#168,.F.);
#241=ORIENTED_EDGE('',*,*,#166,.F.);
#242=ORIENTED_EDGE('',*,*,#165,.T.);
#243=ORIENTED_EDGE('',*,*,#167,.T.);
#244=ORIENTED_EDGE('',*,*,#169,.T.);
#245=ORIENTED_EDGE('',*,*,#170,.F.);
#246=ORIENTED_EDGE('',*,*,#171,.F.);
#247=ORIENTED_EDGE('',*,*,#169,.F.);
#248=ORIENTED_EDGE('',*,*,#168,.T.);
#249=ORIENTED_EDGE('',*,*,#170,.T.);
#250=ORIENTED_EDGE('',*,*,#172,.T.);
#251=ORIENTED_EDGE('',*,*,#132,.F.);
#252=ORIENTED_EDGE('',*,*,#137,.F.);
#253=ORIENTED_EDGE('',*,*,#172,.F.);
#254=ORIENTED_EDGE('',*,*,#171,.T.);
#255=CONICAL_SURFACE('',#292,3.61547009415217,0.523598655563995);
#256=CONICAL_SURFACE('',#313,5.53556880913665,0.0463952496815882);
#257=CONICAL_SURFACE('',#329,3.29046999135773,0.523595814934353);
#258=CONICAL_SURFACE('',#335,3.33749999153652,1.02102343111652);
#259=ADVANCED_FACE('',(#26),#255,.F.);
#260=ADVANCED_FACE('',(#27),#22,.T.);
#261=ADVANCED_FACE('',(#28,#18),#20,.T.);
#262=ADVANCED_FACE('',(#29),#23,.T.);
#263=ADVANCED_FACE('',(#30),#15,.T.);
#264=ADVANCED_FACE('',(#31),#256,.T.);
#265=ADVANCED_FACE('',(#32),#24,.T.);
#266=ADVANCED_FACE('',(#33,#19),#21,.T.);
#267=ADVANCED_FACE('',(#34),#25,.T.);
#268=ADVANCED_FACE('',(#35),#257,.F.);
#269=ADVANCED_FACE('',(#36),#16,.F.);
#270=ADVANCED_FACE('',(#37),#258,.F.);
#271=ADVANCED_FACE('',(#38),#17,.F.);
#272=CLOSED_SHELL('',(#259,#260,#261,#262,#263,#264,#265,#266,#267,#268,
#269,#270,#271));
#273=DERIVED_UNIT_ELEMENT(#275,1.);
#274=DERIVED_UNIT_ELEMENT(#532,3.);
#275=(
MASS_UNIT()
NAMED_UNIT(*)
SI_UNIT($,.GRAM.)
);
#276=DERIVED_UNIT((#273,#274));
#277=MEASURE_REPRESENTATION_ITEM('density measure',
POSITIVE_RATIO_MEASURE(1.),#276);
#278=PROPERTY_DEFINITION_REPRESENTATION(#283,#280);
#279=PROPERTY_DEFINITION_REPRESENTATION(#284,#281);
#280=REPRESENTATION('material name',(#282),#529);
#281=REPRESENTATION('density',(#277),#529);
#282=DESCRIPTIVE_REPRESENTATION_ITEM('Generic','Generic');
#283=PROPERTY_DEFINITION('material property','material name',#539);
#284=PROPERTY_DEFINITION('material property','density of part',#539);
#285=DATE_TIME_ROLE('creation_date');
#286=APPLIED_DATE_AND_TIME_ASSIGNMENT(#287,#285,(#539));
#287=DATE_AND_TIME(#288,#289);
#288=CALENDAR_DATE(2018,20,12);
#289=LOCAL_TIME(15,45,4.,#290);
#290=COORDINATED_UNIVERSAL_TIME_OFFSET(0,0,.BEHIND.);
#291=AXIS2_PLACEMENT_3D('placement',#442,#339,#340);
#292=AXIS2_PLACEMENT_3D('',#443,#341,#342);
#293=AXIS2_PLACEMENT_3D('',#446,#343,#344);
#294=AXIS2_PLACEMENT_3D('',#450,#346,#347);
#295=AXIS2_PLACEMENT_3D('',#452,#348,#349);
#296=AXIS2_PLACEMENT_3D('',#453,#350,#351);
#297=AXIS2_PLACEMENT_3D('',#454,#352,#353);
#298=AXIS2_PLACEMENT_3D('',#455,#354,#355);
#299=AXIS2_PLACEMENT_3D('',#458,#356,#357);
#300=AXIS2_PLACEMENT_3D('',#459,#358,#359);
#301=AXIS2_PLACEMENT_3D('',#460,#360,#361);
#302=AXIS2_PLACEMENT_3D('',#461,#362,#363);
#303=AXIS2_PLACEMENT_3D('',#464,#364,#365);
#304=AXIS2_PLACEMENT_3D('',#465,#366,#367);
#305=AXIS2_PLACEMENT_3D('',#466,#368,#369);
#306=AXIS2_PLACEMENT_3D('',#469,#370,#371);
#307=AXIS2_PLACEMENT_3D('',#471,#372,#373);
#308=AXIS2_PLACEMENT_3D('',#472,#374,#375);
#309=AXIS2_PLACEMENT_3D('',#473,#376,#377);
#310=AXIS2_PLACEMENT_3D('',#474,#378,#379);
#311=AXIS2_PLACEMENT_3D('',#477,#380,#381);
#312=AXIS2_PLACEMENT_3D('',#478,#382,#383);
#313=AXIS2_PLACEMENT_3D('',#480,#385,#386);
#314=AXIS2_PLACEMENT_3D('',#483,#387,#388);
#315=AXIS2_PLACEMENT_3D('',#485,#389,#390);
#316=AXIS2_PLACEMENT_3D('',#487,#392,#393);
#317=AXIS2_PLACEMENT_3D('',#488,#394,#395);
#318=AXIS2_PLACEMENT_3D('',#491,#396,#397);
#319=AXIS2_PLACEMENT_3D('',#492,#398,#399);
#320=AXIS2_PLACEMENT_3D('',#493,#400,#401);
#321=AXIS2_PLACEMENT_3D('',#494,#402,#403);
#322=AXIS2_PLACEMENT_3D('',#497,#404,#405);
#323=AXIS2_PLACEMENT_3D('',#498,#406,#407);
#324=AXIS2_PLACEMENT_3D('',#499,#408,#409);
#325=AXIS2_PLACEMENT_3D('',#502,#410,#411);
#326=AXIS2_PLACEMENT_3D('',#504,#412,#413);
#327=AXIS2_PLACEMENT_3D('',#505,#414,#415);
#328=AXIS2_PLACEMENT_3D('',#506,#416,#417);
#329=AXIS2_PLACEMENT_3D('',#507,#418,#419);
#330=AXIS2_PLACEMENT_3D('',#511,#421,#422);
#331=AXIS2_PLACEMENT_3D('',#512,#423,#424);
#332=AXIS2_PLACEMENT_3D('',#513,#425,#426);
#333=AXIS2_PLACEMENT_3D('',#517,#428,#429);
#334=AXIS2_PLACEMENT_3D('',#518,#430,#431);
#335=AXIS2_PLACEMENT_3D('',#519,#432,#433);
#336=AXIS2_PLACEMENT_3D('',#523,#435,#436);
#337=AXIS2_PLACEMENT_3D('',#524,#437,#438);
#338=AXIS2_PLACEMENT_3D('',#525,#439,#440);
#339=DIRECTION('axis',(0.,0.,1.));
#340=DIRECTION('refdir',(1.,0.,0.));
#341=DIRECTION('center_axis',(-1.,0.,0.));
#342=DIRECTION('ref_axis',(0.,1.,0.));
#343=DIRECTION('center_axis',(1.,0.,0.));
#344=DIRECTION('ref_axis',(0.,0.,-1.));
#345=DIRECTION('',(-0.866025463801584,-0.49999989604724,-6.12323272268262E-17));
#346=DIRECTION('center_axis',(1.,0.,0.));
#347=DIRECTION('ref_axis',(0.,0.,-1.));
#348=DIRECTION('center_axis',(1.,0.,0.));
#349=DIRECTION('ref_axis',(0.,0.,-1.));
#350=DIRECTION('center_axis',(1.,0.,0.));
#351=DIRECTION('ref_axis',(0.,0.,-1.));
#352=DIRECTION('center_axis',(1.,0.,0.));
#353=DIRECTION('ref_axis',(0.,0.,-1.));
#354=DIRECTION('center_axis',(1.,0.,0.));
#355=DIRECTION('ref_axis',(0.,0.,-1.));
#356=DIRECTION('center_axis',(1.,0.,0.));
#357=DIRECTION('ref_axis',(0.,0.,-1.));
#358=DIRECTION('center_axis',(1.,0.,0.));
#359=DIRECTION('ref_axis',(0.,0.,-1.));
#360=DIRECTION('center_axis',(0.,-1.,-1.22464679914735E-16));
#361=DIRECTION('ref_axis',(0.,-1.22464679914735E-16,1.));
#362=DIRECTION('center_axis',(-1.,0.,0.));
#363=DIRECTION('ref_axis',(0.,0.,1.));
#364=DIRECTION('center_axis',(1.,0.,0.));
#365=DIRECTION('ref_axis',(0.,0.,-1.));
#366=DIRECTION('center_axis',(1.,0.,0.));
#367=DIRECTION('ref_axis',(0.,0.,-1.));
#368=DIRECTION('center_axis',(1.,0.,0.));
#369=DIRECTION('ref_axis',(0.,0.,-1.));
#370=DIRECTION('center_axis',(1.,0.,0.));
#371=DIRECTION('ref_axis',(0.,0.,-1.));
#372=DIRECTION('center_axis',(1.,0.,0.));
#373=DIRECTION('ref_axis',(0.,0.,-1.));
#374=DIRECTION('center_axis',(1.,0.,0.));
#375=DIRECTION('ref_axis',(0.,0.,-1.));
#376=DIRECTION('center_axis',(0.,-1.,-1.22464679914735E-16));
#377=DIRECTION('ref_axis',(0.,-1.22464679914735E-16,1.));
#378=DIRECTION('center_axis',(1.,0.,0.));
#379=DIRECTION('ref_axis',(0.,1.,0.));
#380=DIRECTION('center_axis',(1.,0.,0.));
#381=DIRECTION('ref_axis',(0.,0.,-1.));
#382=DIRECTION('center_axis',(1.,0.,0.));
#383=DIRECTION('ref_axis',(0.,0.,-1.));
#384=DIRECTION('',(-1.,0.,0.));
#385=DIRECTION('center_axis',(-1.,0.,0.));
#386=DIRECTION('ref_axis',(0.,1.,0.));
#387=DIRECTION('center_axis',(1.,0.,0.));
#388=DIRECTION('ref_axis',(0.,0.,-1.));
#389=DIRECTION('center_axis',(1.,0.,0.));
#390=DIRECTION('ref_axis',(0.,0.,-1.));
#391=DIRECTION('',(-0.998923933445427,-0.0463786070286366,-5.67974126465328E-18));
#392=DIRECTION('center_axis',(1.,0.,0.));
#393=DIRECTION('ref_axis',(0.,0.,-1.));
#394=DIRECTION('center_axis',(1.,0.,0.));
#395=DIRECTION('ref_axis',(0.,0.,-1.));
#396=DIRECTION('center_axis',(1.,0.,0.));
#397=DIRECTION('ref_axis',(0.,0.,-1.));
#398=DIRECTION('center_axis',(1.,0.,0.));
#399=DIRECTION('ref_axis',(0.,0.,-1.));
#400=DIRECTION('center_axis',(0.,-1.,-1.22464679914735E-16));
#401=DIRECTION('ref_axis',(0.,-1.22464679914735E-16,1.));
#402=DIRECTION('center_axis',(1.,0.,0.));
#403=DIRECTION('ref_axis',(0.,0.,-1.));
#404=DIRECTION('center_axis',(1.,0.,0.));
#405=DIRECTION('ref_axis',(0.,0.,-1.));
#406=DIRECTION('center_axis',(1.,0.,0.));
#407=DIRECTION('ref_axis',(0.,0.,-1.));
#408=DIRECTION('center_axis',(1.,0.,0.));
#409=DIRECTION('ref_axis',(0.,0.,-1.));
#410=DIRECTION('center_axis',(1.,0.,0.));
#411=DIRECTION('ref_axis',(0.,0.,-1.));
#412=DIRECTION('center_axis',(1.,0.,0.));
#413=DIRECTION('ref_axis',(0.,0.,-1.));
#414=DIRECTION('center_axis',(1.,0.,0.));
#415=DIRECTION('ref_axis',(0.,0.,-1.));
#416=DIRECTION('center_axis',(0.,-1.,-1.22464679914735E-16));
#417=DIRECTION('ref_axis',(0.,-1.22464679914735E-16,1.));
#418=DIRECTION('center_axis',(1.,0.,0.));
#419=DIRECTION('ref_axis',(0.,1.,0.));
#420=DIRECTION('',(-0.866026884112616,0.49999743598762,6.12320259564122E-17));
#421=DIRECTION('center_axis',(1.,0.,0.));
#422=DIRECTION('ref_axis',(0.,0.,-1.));
#423=DIRECTION('center_axis',(1.,0.,0.));
#424=DIRECTION('ref_axis',(0.,0.,-1.));
#425=DIRECTION('center_axis',(1.,0.,0.));
#426=DIRECTION('ref_axis',(0.,1.,0.));
#427=DIRECTION('',(-1.,0.,0.));
#428=DIRECTION('center_axis',(1.,0.,0.));
#429=DIRECTION('ref_axis',(0.,0.,-1.));
#430=DIRECTION('center_axis',(1.,0.,0.));
#431=DIRECTION('ref_axis',(0.,0.,-1.));
#432=DIRECTION('center_axis',(-1.,0.,0.));
#433=DIRECTION('ref_axis',(0.,1.,0.));
#434=DIRECTION('',(-0.522493603449916,-0.852643204601973,-1.04418677133055E-16));
#435=DIRECTION('center_axis',(1.,0.,0.));
#436=DIRECTION('ref_axis',(0.,0.,-1.));
#437=DIRECTION('center_axis',(1.,0.,0.));
#438=DIRECTION('ref_axis',(0.,0.,-1.));
#439=DIRECTION('center_axis',(1.,0.,0.));
#440=DIRECTION('ref_axis',(0.,1.,0.));
#441=DIRECTION('',(-1.,0.,0.));
#442=CARTESIAN_POINT('',(0.,0.,0.));
#443=CARTESIAN_POINT('Origin',(0.299999985614967,0.,0.));
#444=CARTESIAN_POINT('',(0.49999999875244,3.50000006473847,0.));
#445=CARTESIAN_POINT('',(0.49999999875244,-3.50000006473847,-4.2862638762975E-16));
#446=CARTESIAN_POINT('Origin',(0.499999998752441,0.,0.));
#447=CARTESIAN_POINT('',(0.0999999724774975,-3.73094012356587,-4.56908388013537E-16));
#448=CARTESIAN_POINT('',(0.299999985614967,-3.61547009415217,-4.42767387821644E-16));
#449=CARTESIAN_POINT('',(0.099999972477498,-4.56908388013538E-16,3.73094012356587));
#450=CARTESIAN_POINT('Origin',(0.099999972477498,0.,0.));
#451=CARTESIAN_POINT('',(0.099999972477498,3.73094012356587,0.));
#452=CARTESIAN_POINT('Origin',(0.099999972477498,0.,0.));
#453=CARTESIAN_POINT('Origin',(0.099999972477498,0.,0.));
#454=CARTESIAN_POINT('Origin',(0.499999998752441,0.,0.));
#455=CARTESIAN_POINT('Origin',(0.199999999999996,0.,0.));
#456=CARTESIAN_POINT('',(5.55111512312578E-15,3.90414518843262,0.));
#457=CARTESIAN_POINT('',(4.44089209850063E-15,-4.78119890842055E-16,3.90414518843262));
#458=CARTESIAN_POINT('Origin',(4.44089209850063E-15,0.,0.));
#459=CARTESIAN_POINT('Origin',(4.44089209850063E-15,0.,0.));
#460=CARTESIAN_POINT('Origin',(0.199999999999996,-4.78119890842055E-16,
3.90414518843262));
#461=CARTESIAN_POINT('Origin',(7.21644966006352E-15,5.8499999999999,0.));
#462=CARTESIAN_POINT('',(7.21644966006352E-15,5.8499999999999,0.));
#463=CARTESIAN_POINT('',(8.88178419700125E-15,-7.16418377501189E-16,5.8499999999999));
#464=CARTESIAN_POINT('Origin',(8.88178419700125E-15,0.,0.));
#465=CARTESIAN_POINT('Origin',(8.88178419700125E-15,0.,0.));
#466=CARTESIAN_POINT('Origin',(0.500000000000007,0.,0.));
#467=CARTESIAN_POINT('',(0.500000000000008,6.3499999999999,0.));
#468=CARTESIAN_POINT('',(0.500000000000007,-7.77650717458557E-16,6.3499999999999));
#469=CARTESIAN_POINT('Origin',(0.500000000000007,0.,0.));
#470=CARTESIAN_POINT('',(0.500000000000007,-6.34999996162941,-7.77650712759527E-16));
#471=CARTESIAN_POINT('Origin',(0.500000000000007,0.,0.));
#472=CARTESIAN_POINT('Origin',(0.500000000000007,0.,0.));
#473=CARTESIAN_POINT('Origin',(0.500000000000007,-7.16418377501189E-16,
5.8499999999999));
#474=CARTESIAN_POINT('Origin',(22.4700006246567,0.,0.));
#475=CARTESIAN_POINT('',(44.4400012493134,6.34999992325892,0.));
#476=CARTESIAN_POINT('',(44.4400012493134,-6.34999996162941,-7.77650712759527E-16));
#477=CARTESIAN_POINT('Origin',(44.4400012493134,0.,0.));
#478=CARTESIAN_POINT('Origin',(44.4400012493134,0.,0.));
#479=CARTESIAN_POINT('',(22.4700006246567,-6.34999996162941,-7.77650712759527E-16));
#480=CARTESIAN_POINT('Origin',(61.9815960526466,0.,0.));
#481=CARTESIAN_POINT('',(79.5231908559799,4.72113769501437,0.));
#482=CARTESIAN_POINT('',(79.5231908559799,-5.78172616653326E-16,4.72113769501437));
#483=CARTESIAN_POINT('Origin',(79.5231908559799,0.,0.));
#484=CARTESIAN_POINT('',(79.5231908559799,-4.72113769501437,-5.78172616653326E-16));
#485=CARTESIAN_POINT('Origin',(79.5231908559799,0.,0.));
#486=CARTESIAN_POINT('',(61.9815960526466,-5.53556880913665,-6.77911662356912E-16));
#487=CARTESIAN_POINT('Origin',(79.5231908559799,0.,0.));
#488=CARTESIAN_POINT('Origin',(79.5000000059127,0.,0.));
#489=CARTESIAN_POINT('',(80.0000000059127,4.22167580009828,0.));
#490=CARTESIAN_POINT('',(80.0000000059127,-5.1700617556282E-16,4.22167580009828));
#491=CARTESIAN_POINT('Origin',(80.0000000059127,0.,0.));
#492=CARTESIAN_POINT('Origin',(80.0000000059127,0.,0.));
#493=CARTESIAN_POINT('Origin',(79.5000000059127,-5.1700617556282E-16,4.22167580009828));
#494=CARTESIAN_POINT('Origin',(80.0000000059126,3.57914531577405,0.));
#495=CARTESIAN_POINT('',(80.0000000059126,3.57914531577405,0.));
#496=CARTESIAN_POINT('',(80.0000000059126,-4.38318885464593E-16,3.57914531577405));
#497=CARTESIAN_POINT('Origin',(80.0000000059126,0.,0.));
#498=CARTESIAN_POINT('Origin',(80.0000000059126,0.,0.));
#499=CARTESIAN_POINT('Origin',(79.8000000059127,0.,0.));
#500=CARTESIAN_POINT('',(79.8999999750037,3.40594006438091,0.));
#501=CARTESIAN_POINT('',(79.8999999750037,-4.17107359793181E-16,3.40594006438091));
#502=CARTESIAN_POINT('Origin',(79.8999999750037,0.,0.));
#503=CARTESIAN_POINT('',(79.8999999750037,-3.40594006438091,-4.17107359793181E-16));
#504=CARTESIAN_POINT('Origin',(79.8999999750037,0.,0.));
#505=CARTESIAN_POINT('Origin',(79.8999999750037,0.,0.));
#506=CARTESIAN_POINT('Origin',(79.8000000059127,-4.38318866753101E-16,3.57914516298312));
#507=CARTESIAN_POINT('Origin',(79.6999985742945,0.,0.));
#508=CARTESIAN_POINT('',(79.4999971735854,-3.17499991833456,-3.88825348728153E-16));
#509=CARTESIAN_POINT('',(79.6999985742945,-3.29046999135773,-4.02966354260667E-16));
#510=CARTESIAN_POINT('',(79.4999971735854,3.17499991833456,0.));
#511=CARTESIAN_POINT('Origin',(79.4999971735854,0.,0.));
#512=CARTESIAN_POINT('Origin',(79.4999971735854,0.,0.));
#513=CARTESIAN_POINT('Origin',(68.7499977398295,0.,0.));
#514=CARTESIAN_POINT('',(57.9999983060737,-3.17499991833456,-3.88825348728153E-16));
#515=CARTESIAN_POINT('',(68.7499977398295,-3.17499991833456,-3.88825348728153E-16));
#516=CARTESIAN_POINT('',(57.9999983060737,3.17499991833456,0.));
#517=CARTESIAN_POINT('Origin',(57.9999983060737,0.,0.));
#518=CARTESIAN_POINT('Origin',(57.9999983060737,0.,0.));
#519=CARTESIAN_POINT('Origin',(57.9004194337506,0.,0.));
#520=CARTESIAN_POINT('',(57.8008405614276,-3.50000006473847,-4.2862638762975E-16));
#521=CARTESIAN_POINT('',(57.9004194337506,-3.33749999153652,-4.08725868178951E-16));
#522=CARTESIAN_POINT('',(57.8008405614276,3.50000006473847,0.));
#523=CARTESIAN_POINT('Origin',(57.8008405614276,0.,0.));
#524=CARTESIAN_POINT('Origin',(57.8008405614276,0.,0.));
#525=CARTESIAN_POINT('Origin',(29.15042028009,0.,0.));
#526=CARTESIAN_POINT('',(29.15042028009,-3.50000006473847,-4.2862638762975E-16));
#527=UNCERTAINTY_MEASURE_WITH_UNIT(LENGTH_MEASURE(0.01),#531,
'DISTANCE_ACCURACY_VALUE',
'Maximum model space distance between geometric entities at asserted c
onnectivities');
#528=UNCERTAINTY_MEASURE_WITH_UNIT(LENGTH_MEASURE(0.01),#531,
'DISTANCE_ACCURACY_VALUE',
'Maximum model space distance between geometric entities at asserted c
onnectivities');
#529=(
GEOMETRIC_REPRESENTATION_CONTEXT(3)
GLOBAL_UNCERTAINTY_ASSIGNED_CONTEXT((#527))
GLOBAL_UNIT_ASSIGNED_CONTEXT((#531,#534,#533))
REPRESENTATION_CONTEXT('','3D')
);
#530=(
GEOMETRIC_REPRESENTATION_CONTEXT(3)
GLOBAL_UNCERTAINTY_ASSIGNED_CONTEXT((#528))
GLOBAL_UNIT_ASSIGNED_CONTEXT((#531,#534,#533))
REPRESENTATION_CONTEXT('','3D')
);
#531=(
LENGTH_UNIT()
NAMED_UNIT(*)
SI_UNIT(.MILLI.,.METRE.)
);
#532=(
LENGTH_UNIT()
NAMED_UNIT(*)
SI_UNIT(.CENTI.,.METRE.)
);
#533=(
NAMED_UNIT(*)
SI_UNIT($,.STERADIAN.)
SOLID_ANGLE_UNIT()
);
#534=(
NAMED_UNIT(*)
PLANE_ANGLE_UNIT()
SI_UNIT($,.RADIAN.)
);
#535=SHAPE_DEFINITION_REPRESENTATION(#536,#537);
#536=PRODUCT_DEFINITION_SHAPE('',$,#539);
#537=SHAPE_REPRESENTATION('',(#291),#529);
#538=PRODUCT_DEFINITION_CONTEXT('part definition',#543,'design');
#539=PRODUCT_DEFINITION('S050-SN025-0315','S050-SN025-0315',#540,#538);
#540=PRODUCT_DEFINITION_FORMATION('',$,#545);
#541=PRODUCT_RELATED_PRODUCT_CATEGORY('S050-SN025-0315',
'S050-SN025-0315',(#545));
#542=APPLICATION_PROTOCOL_DEFINITION('international standard',
'automotive_design',2009,#543);
#543=APPLICATION_CONTEXT(
'Core Data for Automotive Mechanical Design Process');
#544=PRODUCT_CONTEXT('part definition',#543,'mechanical');
#545=PRODUCT('S050-SN025-0315','S050-SN025-0315',$,(#544));
#546=PRESENTATION_STYLE_ASSIGNMENT((#547));
#547=SURFACE_STYLE_USAGE(.BOTH.,#548);
#548=SURFACE_SIDE_STYLE('',(#549));
#549=SURFACE_STYLE_FILL_AREA(#550);
#550=FILL_AREA_STYLE('',(#551));
#551=FILL_AREA_STYLE_COLOUR('',#552);
#552=COLOUR_RGB('',0.749019607843137,0.749019607843137,0.749019607843137);
ENDSEC;
END-ISO-10303-21;
